Home / Community / Forum / Poker Community / Challenges & Battleground & Member Blogs /

was Nov challenges a fluke ? round 4

Old
Default
was Nov challenges a fluke ? round 4 - Tue Dec 13, 2011, 06:08 PM
(#1)
wetmoose 613's Avatar
Since: Dec 2010
Posts: 434
ChromeStar
sucker or fool? i don t know but i m going to try again .Still .50 /45s Hopefully i can find some finish to these games.
 
Old
Default
Tue Dec 13, 2011, 07:48 PM
(#2)
wetmoose 613's Avatar
Since: Dec 2010
Posts: 434
ChromeStar


this is what happens when i push
 
Old
Default
Tue Dec 13, 2011, 08:00 PM
(#3)
XXChris123's Avatar
Since: Jul 2010
Posts: 1,512
BronzeStar
im not even gonna replay its acomet in the sky
 
Old
Default
Tue Dec 13, 2011, 08:02 PM
(#4)
XXChris123's Avatar
Since: Jul 2010
Posts: 1,512
BronzeStar
ok i had to look quad Q';s vs KK oh ewaoit it was JJ

fukinhfg comet
 
Old
Default
Tue Dec 13, 2011, 10:33 PM
(#5)
royalraise85's Avatar
Since: Jul 2011
Posts: 26,020
(Community Coordinator)
Hi Wetmoose,

I play exclusively 45 man sit n goes. I have been since October when 19honu62 introduced the Cowboy Challenge and I like the format. I'm in the money 25% of the time and ROI is approx 22%

There is NO NEED to shove any pocket pair, even Aces or Kings, in the early stage of a tournament. Its asking for trouble.

Holding pocket kings in early position try a 4x raise pre flop on level 1*. See who comes along for the ride. If the flop doesn't have an Ace then C-bet an aggressive but sensible amount, that is, don't shove. If someone call's or re-raises you it usually mean they have caught a piece of the flop or have overcards to your pair. Be prepared to let it go! Do not get awestruck by high pocket pairs.

- Your either going to win a small pot or lose a big one - Doyle Brunson on Pocket Aces.

* As the levels go up reduce your pre flop raise size to 3x and 2.5x as the blinds go up. (Highly recommendatory that you watch Space Gravys videos)

A few adjustments Wetmoose and you'll see a huge improvement.

Raiser


Moderator

Bracelet Winner


 
Old
Default
Tue Dec 13, 2011, 11:13 PM
(#6)
wetmoose 613's Avatar
Since: Dec 2010
Posts: 434
ChromeStar
thanks royal. thats a one off due to my current state of attitude and i have done the videos .nothing will help like a little success.

gl yall
 
Old
Default
Wed Dec 14, 2011, 12:00 AM
(#7)
wetmoose 613's Avatar
Since: Dec 2010
Posts: 434
ChromeStar


now that thats out of my system; attempt #4

1---483498026---.50---35/45----0----12.00
2---483498631---.50--- 4/45--2.53--14.03
3---483498324---.50---16/90----0----13.53
4---483504998---.50--- 6/45--1.21--14.24
5---483534186---.50---23/45----0----13.74
6---483535096---.50---44/45----0----13.24
7---483536851---.50---44/45----0----12.74
8---483540610---.50---29/45----0----12.24
9---483548628---.50--- 9/45----0----11.74
10-483551502---.50--- 8/45----0----11.24
11-483569917---.50--- 8/45----0----10.74
12-483570802---.50---34/45----0----10.24
13-483584979---.50---15/45----0---- 9.74
14-483592323---.50---23/45----0---- 9.24
15-483600872---.50---38/45----0---- 8.74


more tomorrow
gl y all
 
Old
Default
Wed Dec 14, 2011, 09:14 PM
(#8)
wetmoose 613's Avatar
Since: Dec 2010
Posts: 434
ChromeStar
With a little help from my friends here i think maybe,just maybe, i might have found my mojo and i can make this work

16---483601805---.50---34/45----0----8.24
17---483604414---.50---22/45----0----7.79
18---483717621---.50---10/45----0----7.29
19---483718357---.50--- 9/45----0----6.79
20---483741271---.50--- 1/45-6.30-12.59
21---483763432---.50---33/45----0--12.09
22---483770820---.50--- 1/45-6.30-17.89
23---483771644---.50---32/45----0--17.39
24---483777477---.50---35/45---0---16.89
25---483785357---.50---23/45---0---16.39
26---483803195---.50---31/45---0---15.89
27---483807332---.50--- 5/45-1.82-17.21
28---483811575---.50---20/45---0---16.71
29---483833771---.50---42/45---0---16.21
30---483839032---.50---33/45---0---15.71
31---483839571---.50---34/45---0---15.21
32---483852314---.50---24/45---0---14.71
33---483855467---.50---28/45---0---14.21
34---483866100---.50---16/45---0---13.71
35---483871261---.50---37/45---0---13.21
36---483880148---.50---36/45---0---12.71
37---483891312---.50---13/45---0---12.21
38---483891880---.50---10/45---0---11.71
39---483925004---.50---30/45---0---11.21
40---483926274---.50---35/45---0---10.71
struggling to marry a couple of things
41---483934834---.50---24/45---0---10.21
42---483935678---.50--- 8/45---0--- 9.71
43---483954901---.50---28/45---0--- 9.21
44---483967200---.50---34/45---0--- 8.71
45---483969255---.50--- 1/45-6.30-14.51
46---483999567---.50---17/45---0---14.01
47---484022309---.50--- 1/45-6.30-19.81
48---484023163---.50--- 2/45-4.35-23.66:
49---484060026---.50---32/45---0---23.56
50---484060986---.50---18/45---0---23.06

I m MUCH BETTER NOW!!!!

Gl y all
 
Old
Default
Wed Dec 14, 2011, 09:24 PM
(#9)
19honu62's Avatar
Since: Jul 2010
Posts: 1,770
There's the Moose we all know and love!

Gidee Up!
 
Old
Default
Fri Dec 16, 2011, 11:25 PM
(#10)
wetmoose 613's Avatar
Since: Dec 2010
Posts: 434
ChromeStar
you know, if a person actually learned to play this game well ,you could possibly make a living at it . nice dream anyway!!!

51----484071807---.50---20/45----0----22.56
52----484077530---.50---23/45----0----22.06
53----484192006---.50---28/45----0----21.56
54----484192637---.50--- 1/45--6.30--27.36
55----484588308---.50---26/45----0----26.86
56----484587636---.50---42/90----0----26.36
57----484597132---.50---31/45----0----25.86
58----484597867---.50---22/45----0----25.36
60----484601081---.50--- 9/45----0----24.86
61----484604991---.50---27/45----0----24.36
62----484628073---.50--- 2/45--4.35--28.21 s/s ft
63----484628921---.50---17/45----0----27.71
64----484636304---.50---22/45----0----27.21
65----485112278---.50---22/45----0----26.71
66----485113109---.50---14/45----0----26.21
67----485124758---.50--- 2/45--4.35--30.06
68----485129870---.50---21/45----0----29.56
69----485138897---.50---29/45----0----29.06
70----485145091---.50---16/45----0----28.56 33th with 75 chips ty space gravy
 
Old
Default
Sun Dec 18, 2011, 09:08 AM
(#11)
19honu62's Avatar
Since: Jul 2010
Posts: 1,770
I smell victory!

Gidee Up!
 
Old
Default
Mon Dec 19, 2011, 02:06 AM
(#12)
wetmoose 613's Avatar
Since: Dec 2010
Posts: 434
ChromeStar
that s not victory it s a wetmoose!!!

more results
71---485145791---.50--- 3/45--3.34---31.40
72---485654793---.50--31/45----0-----30.90
73---485655564---.50-- 1/45--6.30---36.70
74---485659509---.50--11/45----0-----36.20
75---485672198---.50--39/45----0-----35.70
76---485675751---.50--23/45----0-----35.20
77---485676610---.50--41/45----0-----34.70
78---485678451---.50--- 8/45----0-----34.20
79---486194241---.50--16/45----0-----33.70
80---486195459---.50--19/45----0-----33.20
81---486201080---.50-- 6/45--1.21---33.91
82---486202183---.50--24/45----0-----33.41
83---486203252---.50-- 5/45--1.82---34.73
84---486208172---.50--15/45----0-----34.23
85---486212655---.50-- 4/45--2.53---36.26
86---486217882---.50--14/45----0-----35.76

all i gotta do now is finish out right. NO . i want to increase the BR so i can do the 1$ones again
oh no that s a goal ! sandtrap muist be getting to me

GL y all
 
Old
Default
Mon Dec 19, 2011, 12:37 PM
(#13)
wetmoose 613's Avatar
Since: Dec 2010
Posts: 434
ChromeStar
time to total it all up.

87---486224162---.50---14/45----0----35.26
88---486333820---.50---23/45----0----34.76
89---486334373---.50---17/45----0----34.26
90---486333703---.50---- 7/90--1.72--35.48
91---486343677---.50---12/45----0----34.98
92---486349363---.50---22/45----0----34.48
93---486366303---.50---41/45----0----33.98
94---486368137---.50---26/45----0----33.48
95---486368967---.50---15/45----0----32.98
96---486370028---.50---25/45----0----32.48
97---486385183---.50---17/45----0----31.98
98---486393910---.50---25/45----0----31.48
99---486401430---.50---28/45----0----30.98
100-486402735---.50---12/36----0----30.48

weeeeee!!! success is good
Gl y all
 
Old
Default
Mon Dec 19, 2011, 08:09 PM
(#14)
19honu62's Avatar
Since: Jul 2010
Posts: 1,770
Very nice job! 5th try anyone LOL

Gidee Up!
 

Getting PokerStars is easy: download and install the PokerStars game software, create your free player account, and validate your email address. Clicking on the download poker button will lead to the installation of compatible poker software on your PC of 51.7 MB, which will enable you to register and play poker on the PokerStars platform. To uninstall PokerStars use the Windows uninstaller: click Start > Control Panel and then select Add or Remove programs > Select PokerStars and click Uninstall or Remove.

Copyright (c) PokerSchoolOnline.com. All rights reserved, Rational Group, Douglas Bay Complex, King Edward Road, Onchan, Isle of Man, IM3 1DZ. You can email us on support@pokerschoolonline.com